Aprende a tocar abrazado a la tristeza Extrechinato y tu

Acordes:

    Am                             Am
e|------------3-----2---------2h3------------3-----2---------2h3-----|
B|------1-----------------0------------1-----------------0-----------|
G|----2-----2-----2-----2------------2-----2-----2-----2-------------|
D|-------------------------------------------------------------------|
A|--0-----0-----0-----0------------0-----0-----0-----0---------------|
E|-------------------------------------------------------------------|
    He salido A A calle           abrazado a la tristeza 
 
    Em                             Em
e|-------------------------------------------------------------------|
B|------------0------------------------------0-----------------------|
G|------0-----------3-----0------------0-----------3-----0-----------|
D|----2-----2-----2-----2------------2-----2-----2-----2-------------|
A|-------------------------------------------------------------------|
E|--0-----0-----0-----0-------3h2--0-----0-----0-----0------2h3------|
    Vi lo que no mira nadie        y me dio verguenza y pena
 
    Am                             Am
e|------------3-----2---------2h3------------3-----2---------2h3-----|
B|------1-----------------0------------1-----------------0-----------|
G|----2-----2-----2-----2------------2-----2-----2-----2-------------|
D|-------------------------------------------------------------------|
A|--0-----0-----0-----0------------0-----0-----0-----0---------------|
E|-------------------------------------------------------------------|
    Soledad que te pegas a mi alma, en la dulce soledad.......
 
    Em                             Em
e|-------------------------------------------------------------------|
B|------------0------------------------------0-----------------------|
G|------0-----------3-----0------------0-----------3-----0-----------|
D|----2-----2-----2-----2------------2-----2-----2-----2-------------|
A|-------------------------------------------------------------------|
E|--0-----0-----0-----0-------3h2--0-----0-----0-----0------2h3------|
 
 
    Cmaj7
e|-------------------------------------------------------------------|
B|------------0------------------------------0-----------------------|
G|------0-----------2-----0-----0------0-----------2-----0----0------|
D|----2-----2-----2-----2-----4------4-----4-----4-----4----4--------|
A|--3-----3-----3-----3------------5-----5-----5-----5---------------|
E|-------------------------------------------------------------------|
          Los llantos desconsolados, extrangulan las gargantas
 
    Em                             Em
e|-------------------------------------------------------------------|
B|------------0------------------------------0-----------------------|
G|------0-----------3-----0------------0-----------3-----0-----------|
D|----2-----2-----2-----2------------2-----2-----2-----2-------------|
A|-------------------------------------------------------------------|
E|--0-----0-----0-----0-------3h2--0-----0-----0-----0------2h3------|
 
 
    Cmaj7
e|-------------------------------------------------------------------|
B|------------0------------------------------0-----------------------|
G|------0-----------2-----0-----0------0-----------2-----0----0------|
D|----2-----2-----2-----2-----4------4-----4-----4-----4----4--------|
A|--3-----3-----3-----3------------5-----5-----5-----5---------------|
E|-------------------------------------------------------------------|
          Los ancianos encorvados, parece que la tierra les llama
 
 
    Em                             Em
e|-------------------------------------------------------------------|
B|------------0------------------------------0-----------------------|
G|------0-----------3-----0------------0-----------3-----0-----------|
D|----2-----2-----2-----2------------2-----2-----2-----2-------------|
A|-------------------------------------------------------------------|
E|--0-----0-----0-----0-------3h2--0-----0-----0-----0------2h3------|

Tutorial:

Deja una respuesta