Clases de guitarra en Valencia. Profesor de guitarra, todos los estilos, edeades y niveles.

Canciones peliculas y dibujos animados

PIRATAS DEL CARIBE

1 PIRATAS DEL CARIBE Punteo y partitura del punteo de guitarra-1A

ALADDIN, UN MUNDO IDEAL

aladin un mundo ideal

CAZAFANTASMAS

cazafantasmas

EL INSPECTOR GADGET  

inspector gadget

EL SEÑOR DE LOS ANILLOS

señor de los anillos

STAR WARS, MARCHA IMPERAL

star wars

LA PANTERA ROSA

PANTERA ROSA

HARRY POTTER (FINGERSTYLE, NIVEL INICIACION +1)

hARRY POTTER

 

HARRY POTTER, NIVEL INICIACION.

E ------------------------------0----------------------------------------------------------------|
B ---------------1--0 ------------3----------------0-----------1---0-----------------------------|
G----------2------------2-------------------------------2----------------1----------3------------|
D----2-------------------------------------------------------------------------------------2-----|
A------------------------------------------------------------------------------------------------|
E------------------------------------------------------------------------------------------------|

E ------------------------------0-----3----2----1-------1----------------------------------------|
B ---------------1--0 ------------------------------2---------1-----------------1----------------|
G----------2------------2-------------------------------------------2----------------2-----------|
D----2---------------------------------------------------------------------1---------------------|
A------------------------------------------------------------------------------------------------|
E------------------------------------------------------------------------------------------------|

E----------0-------------------0--------------------1----------0----------------0------------------|
B-----1-------------------1-------------------1--------------------4------4--------1------1--------|
G-------------------------------------------------------------------------------------2------2-----|
D----------------------------------------------------------------------------------------1---------|
A--------------------------------------------------------------------------------------------------|
E--------------------------------------------------------------------------------------------------|

E-----------0-------------------0--------------------3-----2-----1-----------0---------------------|
B-----1--------------------1-------------------1----------------------2-----------1--------1-------|
G-----------------------------------------------------------------------------------2---------2----|
D--------------------------------------------------------------------------------------1-----------|
A--------------------------------------------------------------------------------------------------|
E--------------------------------------------------------------------------------------------------|

 

HAKUNA MATATA -ACORDES.

explicación:

demostración:

 

 

LA VIDA ES BELLA. PUNTEO

La vida es bella guitarra

LOS SIMPSONS 

SIMPSONS

MISION IMPOSIBLE.

Leave a Reply