Clases de guitarra en Valencia. Profesor de guitarra, todos los estilos, edeades y niveles.

Ejercicios de flamenco: La farruca.

Historia:

La farruca es uno de los palos flamencos más recientes.

Su origen se encuentra en el folclore del norte de España, y fue llevado a Andalucía a mediados del s. XIX La manera flamenca de este cante se popularizó enormemente en la primera mitad del siglo XX.

Según historiadores expertos parece ser que fue Manuel Lobato El Loli quien primero cultivó la versión flamenca, seguido de Manuel Torre en la primera década del siglo XX.

A la hora de ejecutar la farruca para guitarra esta tienda a rematar el toque con una coda que recuerda a una alborada gallega, acelerando el tiempo y creciendo en intensidad hasta concluir.

En cuanto a la tonalidad compositiva es la tonalidad menor caracteriza a la farruca, con alternancia de dominante y tónica e intervención de la subdominante en el acompañamiento de guitarra. El ritmo con el que acompaña la guitarra (binario) es entrecortado al estilo del tango argentino o el pasodoble español.

Ejercicios de farruca para guitarra:

Ejercicio 1:



     p        m       i                                   
     |----------3----------|  |--3--|  |--3--|  |--3--|   
     E                  E  E  E  E  E  E  E  E  E  E  E   
E||------------------------------------------------------|
B||---------------------0--------0--------0--------0-----|
G||------------------------1--------1--------1--------1--|
D||------------------------------------0-----------------|
A||--2------------------------------------------2--------|
E||---------------------------0--------------------------| 
      
                    p--------------------------           
  |--3--|  |--3--|                                        
  E  E  E  E  E  E  E                           E  E  E   
-----0--------0------------------------------------------|
--------1--------1---------------------------------------|
--------------------2------------------------------------|
-----------2------------------------------------2--0-----|
--0---------------------------------------------------3--|
---------------------------------------------------------| 
      
                                                           x         
  |--3--|  |--3--|  |--3--|  |--3--|     |--3--|  |--3--|            
  E  E  E  E  E  E  E  E  E  E  E  E     E  E  E  E  E  E  H         
--------------------------------------|-----0--------0--------------|
-----0--------0--------0--------0-----|--------1--------1-----------|
--------1--------1--------1--------1--|--------------------2--------|
--------------------0-----------------|-----------2-----------------|
--2--------------------------2--------|--0--------------------------|
-----------0--------------------------|-----------------------------| 
      
  |--3--|  |--3--|  |--3--|  |--3--|     |--3--|  |--3--|  |--3--|  |--3--|   
  E  E  E  E  E  E  E  E  E  E  E  E     E  E  E  E  E  E  E  E  E  E  E  E   
-----0--------0--------0--------0-----|-----0--------0--------0--------0-----|
--------6--------6--------6--------6--|--------5--------5--------5--------5--|
-----------7--------5--------7--------|-----------5--------4--------5--------|
--0-----------------------------------|--------------------------------------|
--------------------------------------|--0-----------------------------------|
--------------------------------------|--------------------------------------| 
      
  |--3--|  |--3--|  |--3--|  |--3--|   
  E  E  E  E  E  E  E  E  E  E  E  E   
-----0--------0--------0--------0-----|
--------3--------3--------0--------0--|
-----------2-----------------1--------|
--3-----------------2-----------------|
--------------------------------------|
--------------------------------------| 
      
  p            p            i             m          p         
                                                     ^         
  E                                         E  E  E  H         
-----------------------------------------------------0--------|
--------------------------------------------------1--1--------|
-----------------------------------------------2-----2--------|
--------------------------------------------2--------2--------|
--0--------------------------------------------------0--------|
--------------------------------------------------------------| 
      
    x           x              x             x              
    E  E  E  E  E  E  E  E     E  E  S S S S E  E  E  E     
|---0--0--0--0--0--0--0--0--|--0--0--0-0-0-0-0--0--0--0---||
|---0--0--2--2--3--3--0--0--|--1--1--1-1-1-1-1--1--1--1---||
|*--1--1--1--1--1--1--1--1--|--2--2--2-2-2-2-2--2--2--2--*||
|*--0--0--0--0--0--0--0--0--|--2--2--2-2-2-2-2--2--2--2--*||
|---2--2--2--2--2--2--2--2--|--0--0--0-0-0-0-0--0--0--0---||
|---------------------------|-----------------------------|| 
      
  x             x              x                        
  E  E  S S S S E  E  E  E     E  E  S S S S Q    Q     
--1--1--1-1-1-1-3--3--1--1--|--0--0--0-0-0-0-0----0----|
--3--3--3-3-3-3-3--3--3--3--|--1--1--1-1-1-1-1----1----|
--2--2--2-2-2-2-2--2--2--2--|--2--2--2-2-2-2-2----2----|
--0--0--0-0-0-0-0--0--0--0--|--2--2--2-2-2-2-2----2----|
----------------------------|--0--0--0-0-0-0-0----0----|
----------------------------|--------------------------| 
      
  ^                                       ^          
       |---3--|                                      
  Q    E   E  E  E   E  E  E     H        H          
--0---------------------------|-----------0--------||
--0---------------------------|-----------1--------||
--1---------------------------|-----------2--------||
--0-----------0--2p--0--------|-----------2--------||
--2----2h--3------------3--2--|--0--------0--------||
--0---------------------------|--------------------||

ejercicio farruca guitarra

Ejercicio 2.

 

 

https://www.youtube.com/watch?v=HVSDwULqlSc&feature=youtu.be

     Q    Q    Q    Q       Q    S S S Q    H         
E||-----------------5----|--7----5-7-5-4----5--------|
B||------------5---------|---------------------------|
G||-------5--------------|---------------------------|
D||--7-------------------|---------------------------|
A||----------------------|---------------------------|
E||----------------------|---------------------------|
  E  E  E  E  E  E  E  E     E  E  E  E  E  E  E  E     Q    Q    Q    Q     
-----0--0--0-----0--0--0--|-----0--0--0-----0--0--0--|-----------------5----|
--------------------------|--------------1-----------|------------5---------|
--------------------------|--2-----------------------|-------5--------------|
--------------2-----------|--------------------------|--7-------------------|
--0-----------------------|--------------------------|----------------------|
--------------------------|--------------------------|----------------------|
  Q    S S S Q    H           E  E  E  E  E  E  E  E   
--7----5-7-5-4----5--------|-----7--7--7-----7--7--7--|
---------------------------|--------------------------|
---------------------------|--------------7-----------|
---------------------------|--6-----------------------|
---------------------------|--------------------------|
---------------------------|--------------------------|
  E  E  E  E  E  E  E  E     E   E   E   E   E   E   E   E   
-----7--7--7-----7--7--7--|-----10--10--10------10--10--10--|
--6-----------------------|---------------------------------|
--------------7-----------|-----------------10--------------|
--------------------------|--9------------------------------|
--------------------------|---------------------------------|
--------------------------|---------------------------------|
  E   E   E   E   E   E   E   E     E  E  E  E  E  E  E  E   
-----12--12--12------10--10--10--|-----7--7--7-----7--7--7--|
---------------------------------|--------------------------|
-----------------10--------------|--------------7-----------|
--9------------------------------|--6-----------------------|
---------------------------------|--------------------------|
---------------------------------|--------------------------|
  E  E  E  E  E  E  E  E     E   E   E   E   E   E   E   E   
-----7--7--7-----7--7--7--|-----10--10--10------10--10--10--|
--6-----------------------|---------------------------------|
--------------7-----------|-----------------10--------------|
--------------------------|--9------------------------------|
--------------------------|---------------------------------|
--------------------------|---------------------------------|
  E  E  E  E  E  E  E  E     Q    Q    Q    Q       Q    S S S Q    E   
-----7--7--7-----7--7--7--|-----------------5----|--7----5-7-5-4----5--|
--------------------------|------------5---------|---------------------|
--------------7-----------|-------5--------------|---------------------|
--6-----------------------|--7-------------------|---------------------|
--------------------------|----------------------|---------------------|
--------------------------|----------------------|---------------------|
  Q    Q    Q    Q       Q    Q    Q    Q       Q    Q    Q    Q     
--3--------------3----|--1--------------1----|--0--------------0----|
-------3--------------|-------1--------------|-------0--------------|
------------4---------|------------2---------|------------1---------|
----------------------|----------------------|----------------------|
----------------------|----------------------|----------------------|
--3-------------------|--1-------------------|--0-------------------|
  Q    Q    Q    Q       Q    Q    Q    Q       Q    Q    Q    Q     
--1--------------1----|--0--------------0----|--0--------------0----|
-------3--------------|-------1--------------|-------0--------------|
------------2---------|------------2---------|------------1---------|
--0-------------------|----------------------|----------------------|
----------------------|--0-------------------|----------------------|
----------------------|----------------------|--0-------------------|
  H           H                
--0--------|--0--------|-----||
--1--------|--1--------|-----||
--2--------|--2--------|-----||
--2--------|--2--------|-----||
--0--------|--0--------|-----||
-----------|-----------|-----||

 ejercicio farruca guitarra 2

Leave a Reply