Aprende a tocar Here comes your man, Pixies

Aprende a tocar con la guitarra la canción del grupo Pixies, here comes your man.
Una canción que cuenta con un pequeño punteo que te permitirá mejorar tus condiciones de técnica de pua y contrapua
y por otro lado “reforzar” algunos de los acordes abiertos básicos.

Aquí un video para aprender a tocarlo.

Pixies
Song: Here Comes Your Man
Album: Doolittle
Tabbed by: Derek on 11/28/99

[INTRO] (chords on top, lead on bottom)
                    G          A            D
E----------------------------------------------- 
B-----------------------------------------------
G-----------------------------------------------  played three times
D--0--0--4--4--5----------------------0--2--0---
A-----------------0------2--0--0--4-------------
E--------------------3--------------------------

[VERSE]
D                  A
 Outside there's a box car waiting
Em           G         D
 Outside the family stew
            A
 Out by the fire breathing
Em          G                    D
 Outside we wait 'til face turns blue
            A
 I know the nervous walking
Em          G              D
 I know the dirty beard hangs
            A
 Out by the box car waiting
Em               G
 Take me away to nowhere plains

[BRIDGE]
Bm                  G                 A
 There is a wait so long (so long, so long)
                    D     G
 You never wait soooo looong

[CHORUS] (intro lead part played over chorus)  
 A               D   G
 Here comes your man
 A               D   G
 Here comes your man
 A               D
 Here comes your man

[VERSE 2] same chords (D, A, Em, G)
 Joey plays:
E-------------------------------|------------------------------
B--7--5----------------------5--|--7--5---------7--7--5-----5--
G--------7---7--6--6--6-\-7-----|--------7---7-----------7-----
D-------------------------------|------------------------------
A-------------------------------|------------------------------
E-------------------------------|------------------------------

 Big shake on the box car moving
 Big shake to the land that's falling Down
 Is a wind makes a palm stop blowing
 A big, big stone fall and break my crown

[BRIDGE]
Bm                  G                 A
 There is a wait so long (so long, so long)
                    D     G
 You never wait soooo looong

[CHORUS] (intro lead part played over chorus)  
 A               D   G
 Here comes your man
 A               D   G
 Here comes your man
 A               D   G
 Here comes your man
 A               D
 Here comes your man

D  A  Em  G  (alot of times) there are two other lead guitars on this part.
                             I’ll get around to tabbing that sometime.

(BRIDGE)

(CHORUS) 
abril 14, 2016

0 responses on "Aprende a tocar Here comes your man, Pixies"

Deja un mensaje

Menús de configuración en el Panel de Administración

Ir a la barra de herramientas